目前日期文章:201002 (4)

瀏覽方式: 標題列表 簡短摘要
由於相簿空間不夠,所以預計把下列舊的MP3檔放到別的空間去以節省空間
蝶戀
FIR- 我們的愛演奏半成品
有詐的搖滾卡農
葉子DEMO
自彈自唱-爸爸媽媽
自彈自唱陌生人
唐老鴨唱啊~大岩壁
爸爸媽媽(混音版)
灌籃高手演奏
Big Blue Ocean第二次
曹格 背叛 吉他演奏
聖誕曲

全部加入播放清單

Oscar 發表在 痞客邦 留言(0) 人氣()

3/3期初成發練一下XD
練到都吵啞了...

Oscar 發表在 痞客邦 留言(10) 人氣()

編的簡單,後面稍為難一點,這首歌就適合安靜的時候彈
音源試聽,建議在彈奏時,伴奏的力道要稍為小聲一點,才會有呼吸的感覺

{###_geniusking/23/o1895906974.jpg_###}
請點繼續閱讀下載GTP譜
適合在安靜的地方獨自一個人彈..
故意編的很單調,後面再加一點伴奏
應該很好上手^^


GuitarPro 吉他譜 陳奕迅 好久不見 下載
打譜辛苦,所以有載的剛好你也登入無名就順手推一下吧, 謝謝囉~

Oscar 發表在 痞客邦 留言(7) 人氣()


看完上面叮噹兄那個例子後
對這種「使用相同和弦不同把位」的編法,應該有初步的認識
另外再補充一些想同道理的方法:
"同和弦同把位,但撥不同弦"
EX: C 開放和弦
Guitar 1: T123-121
E||-----------0--------------|
B||--------1-----------1-----|
G||-----0-----------0-----0--|
D||--------------------------|
A||--3-----------------------|
E||--------------------------|
Guitar 2: TT12-T1T
E||--------------------------|
B||-----------1--------------|
G||--------0-----------0-----|
D||-----2-----------2-----2--|
A||--3-----------------------|
E||--------------------------|
其實聽起來就像一把吉他這樣彈:
E||----------- ----- 0--------------------------||
B||-------- ----1---1-----------1--------------||
G||-------0----0---------0--- -0----0-------||
D||-------2---------------2----- --- -2--------||
A||--3-----------------------------------------||
E||---------------------------------------------||
其實就只是把複雜的單吉他伴奏分給兩把吉他去做事這樣XD

Oscar 發表在 痞客邦 留言(3) 人氣()